Accords guitare

Accords guitare : Harry Potter (Theme)


Harry Potter (Theme) :

  • Niveau : Novice
  • Métrique : 4/4 (4 temps par mesure)


Tablatures :

E-------0--3--2--0--7--5--2---------0--3--2-----2--0----------------|
B----0---------------------------------------3----------------------|
G-------------------------------------------------------------------|
D-------------------------------------------------------------------|
A-------------------------------------------------------------------|
E-------------------------------------------------------------------|

E---0--3--2--0--7--10--9--8--5--8--7--6-----3--0--------------------|
B-0--------------------------------------3--------------------------|
G-------------------------------------------------------------------|
D-------------------------------------------------------------------|
A-------------------------------------------------------------------|
E-------------------------------------------------------------------|

E---3--7----3--7---3---10--9--8--5--8--7--6-----3--0----------------|
B--------------------------------------------3----------------------|
G-------------------------------------------------------------------|
D-------------------------------------------------------------------|
A-------------------------------------------------------------------|
E-------------------------------------------------------------------|