Accords guitare

Accords guitare : Indochine – J’ai demandé à la lune


Indochine – J’ai demandé à la lune :

  • Niveau : Débutant
  • Métrique : 4/4 (4 temps par mesure)


Tablatures, accords et paroles :

 
Intro :
 
     A        E         F#m            (2 x)
 
e :-------------------------------------------------------------|II
B :-------------------------------------------------------------|o-II
G :-------------------------------------------------------------|II
D :---7-----7-----9-----9-----4-----4-----4-----4---------------|II
A :------7-----7-----7-----7----4-----4-----4-----4-/-----------|o-II
E :-------------------------------------------------------------|II
 
Couplets :
 
     A        E         F#m            (2 x)
 
e :-------------------------------------------------------------|II
B :-------------------------------------------------------------|o-II
G :-------------------------------------------------------------|II
D :---7-----7-----9-----9-----4-----4-----4-----4---------------|II
A :------7-----7-----7-----7----4-----4-----4-----4-/-----------|o-II
E :-------------------------------------------------------------|II
 
     Bm                     F#m          
e :-------------------------------------------------------------|II
B :-------------------------------------------------------------|II
G :-------------------------------------------------------------|II
D :---9-----9-----9-----9------4----4-------4-----4-------------|II
A :------9-----9-----9-----9-----4----4------4-----4------------|II
E :-------------------------------------------------------------|II

C#m E
e :-------------------------------------------------------------|II
B :-------------------------------------------------------------|II
G :-------------------------------------------------------------|II
D :---11----11----11---11-------9-----9------9-----9------------|II
A :------11----11----11----11----7-----7-----7-----7------------|II
E :-------------------------------------------------------------|II


A E F#m J'ai demandé à la lune A E F#m et le soleil ne le sait pas Bm F#m je lui ai montré mes brûlures C#m E et la lune s'est moquée de moi A E F#m et comme le ciel n'avait pas fière allure A E F#m et que je ne guérissais pas Bm F#m je me suis dit quelle infortune C#m E et la lune s'est moquée de moi A E F#m J'ai demandé à la lune A E F#m si tu voulais encore de moi Bm F#m elle m'a dit : « j'ai pas l'habitude C#m E de m'occuper de cas comme ça » A E F#m et toi et moi on était tellement sûr A E F#m et on se disait quelques fois Bm F#m que c'était juste une aventure C#m E et que ça ne durerait pas Interlude : Dm Am (2x) C G C G e:-1-------0--------I-0------------------------------3--------| b:-----3-------1----I-----1---3-------1-------3-----3---------| g:---2-------2------I---0---------4-------0-------4-----------| d:------------------I-----------5-------2-------5-------------| a:------------------I-----------------------------------------| E:------------------I-----------------------------------------| Dm Am Je n'ai pas grand chose à te dire Dm Am et pas grand chose pour te faire rire C G car j'imagine toujours le pire C G et le meilleur me fait souffrir Couplet sans chanter A E F#m J'ai demandé à la lune A E F#m si tu voulais encore de moi Bm F#m elle m'a dit : « j'ai pas l'habitude C#m E de m'occuper de cas comme ça » A E F#m et toi et moi on était tellement sûr A E F#m et on se disait quelques fois Bm F#m que c'était juste une aventure C#m E et que ça ne durerait pas