Accords guitare

Accords guitare : Johnny Hallyday – Je te promet


Johnny Hallyday – Je te promet :

  • Niveau : Débutant/Intermédiaire
  • Métrique : 4/4 (4 temps par mesure)


Accords et paroles :


   C
e||-----0--------0---------0-------0--------|
B||-------1--------1---------1-------1------|
G||*--------0--------0---------0-------0----|
D||*----------2------------------2----------|
A||--3------------------3-------------------|
E||-----------------------------------------|

  Em
e|---0--------0---------0-------0---------|
B|-----0--------0---------0-------0-------|
G|-------0--------0---------0-------0-----|
D|----------2------------------2----------|
A|--2---------------2---------------------|
E|----------------------------------------|

   Dm
e|---1-------1-------1-------1------------|
B|-----3-------3-------3-------3----------|
G|-------2-------2-------2-------0--------|
D|-0-------0-------0-------0--------------|
A|----------------------------------------|
E|----------------------------------------|

   F                   G
e|---1-------1----------3---------3--------||
B|-----1-------1----------0---------0------||
G|-------2-------0----------0---------0---*||
D|---------3-------------------0----------*|| X2
A|-3---------------------------------------||
E|-------------------3---------------------||

Couplet 1 :
-----------

   C 
Je te promets le sel au baiser de ma bouche 
   Em 
Je te promets le miel à ma main qui te touche 
    Dm 
Je te promets le ciel au-dessus de ta couche 
    F                                G
Des fleurs et des dentelles pour que tes nuits soient douces 
   C 
Je te promets la clef des secrets de mon âme 
   Em 
Je te promets ma vie de mes rires à mes larmes 
   Dm 
Je te promets le feu à la place des armes 
     F                          G
Plus jamais des adieux rien que des au revoir 


Refrain 1 : ( Rythmique : B BBH* )
-----------  
    F 
J'y crois comme à la terre 
          C
J'y crois comme au soleil 
    Dm 
J'y crois comme un enfant 
         Am 
Comme on peut croire au ciel 
    F
J'y crois comme à ta peau 
      C
A tes bras qui me serrent 
     Dm                       C 
J'te promets une histoire différente des autres 
     F                        G     F
J'ai tant besoin d'y croire encore 
  
Couplet 2 : idem couplet 1
-----------

Je te promets des jours tous bleus comme tes veines 
Je te promets des nuits rouge comme tes rêves 
Des heures incendescentes et des minutes blanches 
Des secondes insouciantes au rythme de tes hanches 
Je te promets mes bras pour porter tes angoisses 
Je te promets mes mains pour que tu les embrasses 
Je te promets mes yeux si tu ne peux plus voir 
J'te promets d'être heureux si tu n'as plus d'espoir 
  
Refrain 2 : idem refrain 1
-----------

J'y crois comme à la terre 
J'y crois comme au soleil 
J'y crois comme un enfant 
Comme on peut croire au ciel 
J'y crois comme à ta peau 
A tes bras qui me serrent 
J'te promets une histoire différente des autres 
F                           G( faire 2 fois )
J'ai tant besoin d'y croire encore 

Pont : Rythmique identique à celle du refrain 
------

   F                            C 
Et même si c'est pas vrai si on te l'a trop fait 
    Dm                        Am 
Si les mots sont usés comme écrits à la craie 
   F                                C
On fait bien des grands feux en frottant des cailloux 
     Dm                      Am 
Peut-être avec le temps à la force d'y croire 
   F                       G 
On peut juste essayer pour voir 
   F                           G 
Et même si c'est pas vrai même si je mens 
   C                         F 
Si les mots sont usés légers comme du vent 
   Dm                           C 
Et même si notre histoire se termine au matin 
     F                           G 
J'te promets un moment de fièvre et de douceur 
    F                           G 
Pas toute la nuit mais quelques heures

F   G 
  
Couplet 3 :
-----------

   C
Je te promets le sel au baiser de ma bouche 
   Em
Je te promets le miel à ma main qui te touche 
   Dm
Je te promets le ciel au-dessus de ta couche 
    F                                G
Des fleurs et des dentelles pour que tes nuits soient douces