Accords guitare

Accords guitare : M – Qui De Nous Deux


M – Qui De Nous Deux :

  • Niveau : Intermédiaire
  • Métrique : 4/4 (4 temps par mesure)


Accords, tablatures et paroles :

Intro :
 
e|------------------------------------------------------------|
B|-------------------------11~~~~-----------------------------|
G|----------12~~~~-10--12--------------------10--12-12~~~~----|
D|----------------------------------------x-------------------|
A|------------------------------------------------------------|
E|------------------------------------------------------------|
 
e|------------------------------------------------------------|
B|-----------------------------------------------13--11-------|
G|------10--12-12~~~~----------------12--------x--------------|
D|---x----------------------------x---------------------------|
A|------------------------------------------------------------|
E|------------------------------------------------------------|
 
e|------------------------------------------------------------|
B|------------------------------------------------------------|
G|--------------10--12-12--10---------10--12-12---------------|
D|-----------x----------------10\8----------------------------|
A|------------------------------------------------------------|
E|------------------------------------------------------------|
 
Verse :
Cm Bras de bois Gm Des clefs aux doigts F C Des cordes pour tendons Cm Agite-nous Gm Agite-moi F Fais l'arpège C Sature le son Cm Gm Qui de nous deux F C Inspire l'autre Cm Oui je joue Gm D'un sixième membre F C A la forme de tes hanches Cm Ventre a ventre Gm D7 Elégante compagne
Chorus :
Cm Gm Qui de nous deux F C Inspire l'autre Cm Gm Qui de nous deux F Speed l'autre F Speed l'autre Cm Caisse parfois, Gm Pleine de doute F Je te griffe C Te lacère Cm Des amplis chavirent Gm Souvent j'ai voulu F Te pendre à tes cordes C T'oublier D7 Aux objets trouvés
Chorus : repeat 4 time "Inspire l'autre"

Cm Je t'appréhende Gm Je te garde F Je te pose C A mon cou Cm Issue à ma voix Gm Inspire-moi F Enveloppe-nous C Enlace-moi
Chorus : repeat 6 time "Inspire l"autre"

Cm
Stridence
Gm Magnifique F Aux instants C Oniriques Cm Membre fictif Gm Acoustique F Féline électrique C Amie D7 Oh oui Chorus : repeat 6 time "Inspire l"autre"
Cm Stridence Gm Magnifique F Aux instants C Oniriques Cm Membre fictif Gm Acoustique F Féline électrique C Amie D7 Oh oui