Accords guitare

Accords guitare : Pink Floyd – Wish You Were Here


Pink Floyd – Wish You Were Here :

  • Niveau : Intermédiaire
  • Métrique : 4/4 (4 temps par mesure)


Tablatures et accords :

Intro :
 
e|-----------|-----3-3-3---3-3--------3---------|-----3-3-3---3-3---3-------------|
B|-----------|-----3-3-3---3-3--------3---------|-----3-3-3---3-3---3-------------|
G|-----------|-----0-0-0---0-0--------0-0-------|-----0-0-0---0-0---0-------------|
D|-------0---|-2---2-2-2---2-2--------------2---|-0---0-0-0---0-0---0---------0---|
A|---0h2-----|-----2-2-2---2-2------------------|-----2-2-2---2-2---------0h2-----|
E|-----------|-----x-x-x---x-x------------------|-----3-3-3---3-3-----3-----------|
 
 
e|-----3-3-3---3-3---3-------------|-----3-3-3---3-3---3-------------|
B|-----3-3-3---3-3---3-------------|-----3-3-3---3-3---3-------------|
G|-----0-0-0---0-0---0-----0-------|-----0-0-0---0-0---0-------------|
D|-2---2-2-2---2-2-----2-------2---|-0---0-0-0---0-0---0---------0---|
A|-----2-2-2---2-2-----------------|-----2-2-2---2-2---------0h2-----|
E|-----x-x-x---x-x-----------------|-----3-3-3---3-3-----3-----------|
 
 
e|-----3--3--3--3-3-|--------------|--3---3-3------3-3-3---------|
B|-----3--3--3--3-3-|--------------|--3---3-3------3-3-3---------|
G|-----0--0--0--0-0-|--------------|--2---2-2------2-2-2---------|
D|-2---2--2--2--2-2-|--2--0--------|--2---2-2------2-2-2-----0---|
A|-----2--2--2--2-2-|--------2--0--|--0-------0----------0h2-----|
E|-----x--x--x--x-x-|--------------|-----------------------------|
 
 
e|-----3--3--3--3-3-|--------------|--3--3--3--3-3-|
B|-----3--3--3--3-3-|--------------|--3--3--3--3-3-|
G|-----0--0--0--0-0-|--------------|--2--2--2--2-2-|
D|-2---2--2--2--2-2-|--2--0--------|--2--2--2--2-2-|
A|-----2--2--2--2-2-|--------2--0--|--0--0--0--0-0-|
E|-----x--x--x--x-x-|--------------|--x--x--x--x-x-|
 
 
e|------------------|-3--3--3--3-3-|-3--3--3--3-3-|--3--3--3--3-3-|
B|------------------|-3--3--3--3-3-|-3--3--3--3-3-|--3--3--3--3-3-|
G|------------------|-0--0--0--0-0-|-0--0--0--0-0-|--0--0--0--0-0-|
D|------------------|-0--0--0--0-0-|-0--0--0--0-0-|--0--0--0--0-0-|
A|---0—2p0------2---|-2--2--2--2-2-|-2--2--2--2-2-|--2--2--2--2-2-|
E|---------3-3—-3---|-3--3--3--3-3-|-3--3--3--3-3-|--3--3--3--3-3-|
 
(Guitar 1 continues to play intro behind Guitar 2’s solo).
 
 
Solo : (2nd Guitar)
 
e|----------------------------------------------------------|
B|--------3------5------3-----------------------------------|
G|--2h3/4------------4-------------4p0--------------------|
D|------------------------------------------0---------0---0-|
A|-----------------------------------------------1/2--------|
E|----------------------------------------------------------|
 
 
e|----3/5-5-----------------------------------------------|
B|----3/5-5----3/5-5---------3/5-5-------(/0)---------|
G|---------------2/4-4----0----2/4-4p0-4----------------|
D|-----------------------------------------5----------------|
A|----------------------------------------------------------|
E|----------------------------------------------------------|
 
 
e|-------------------------------------------------------------------|
B|----------3-------5----5b7r5p3-----3--------------3h5--------------|
G|----2h3/4------4----------------4------2~----4b6-------4b6---2~----|
D|-------------------------------------------------------------------|
A|-------------------------------------------------------------------|
E|-------------------------------------------------------------------|
 
 
e|-------------------------------------------------------------------|
B|----------3------5----5b7-7r5p3--5---------------------------------|
G|----2h3/4----4-------------------------2~-------4b6r4----2~--------|
D|-------------------------------------------------------------------|
A|-------------------------------------------------------------------|
E|-------------------------------------------------------------------|

Couplet (x2) :

GDAmG
DCAmG
Interlude :
 
e|------------------|-3--3--3--3-3-|--------------|--3--3--3--3-3--|
B|------------------|-3--3--3--3-3-|--------------|--3--3--3--3-3--|
G|------------------|-0--0--0--0-0-|----0---------|--0--0--0--0-0--|
D|-------------0--2-|-2--2--2--2-2-|-------2--0---|--0--0--0--0-0--| x2
A|------0h2---------|-2--2--2--2-2-|--------------|--2--2--2--2-2--|
E|---(3)------------|-x--x--x--x-x-|--------------|--3--3--3--3-3--|
 
 
e|------------------|-3--3--3--3-3-|--------------|--3--3--3--3-3-|
B|------------------|-3--3--3--3-3-|--------------|--3--3--3--3-3-|
G|------------------|-0--0--0--0-0-|--------------|--2--2--2--2-2-|
D|-------------0--2-|-2--2--2--2-2-|--2--0--------|--2--2--2--2-2-| x2
A|------0h2---------|-2--2--2--2-2-|--------2--0--|--0--0--0--0-0-|
E|---3--------------|-x--x--x--x-x-|--------------|--x--x--x--x-x-|
 
 
e|------------------|-3--3--3--3-3-|-3--3--3--3-3-|--3--3--3--3-3-|
B|------------------|-3--3--3--3-3-|-3--3--3--3-3-|--3--3--3--3-3-|
G|------------------|-0--0--0--0-0-|-3--3--3--3-3-|--0--0--0--0-0-|
D|------------------|-0--0--0--0-0-|-3--3--3--3-3-|--0--0--0--0-0-|
A|---0—2p0------2---|-2--2--2--2-2-|-3--3--3--3-3-|--2--2--2--2-2-|
E|---------3-3—-3---|-3--3--3--3-3-|-3--3--3--3-3-|--3--3--3--3-3-|

Refrain (x1) :

CDAmG
DCAmG

Paroles :

So, so you think you can tell
Heaven from Hell,
Blue skys from pain.
Can you tell a green field
From a cold steel rail?

A smile from a veil?
Do you think you can tell?

And did they get you to trade
Your heros for ghosts?
Hot ashes for trees?
Hot air for a cool breeze?
Cold comfort for change?
And did you exchange
A walk on part in the war
For a lead role in a cage?

How I wish, how I wish you were here.
We’re just two lost souls
Swimming in a fish bowl,
Year after year,
Running over the same old ground.
What have we found?

The same old fears.
Wish you were here.