Accords guitare

Accords guitare : Sia – Chandelier


Sia – Chandelier :

  • Niveau : Débutant/Intermédiaire
  • Métrique : 4/4 (4 temps par mesure)
  • Capo case 1


Accords et paroles :

 

Couplet ( Arpège ) :

  Am                   F
e|-------0-------------------0--------------
B|-----1------1---1--------1-------1---1----
G|---2----------2--------2-----------2------
D|------------------------------------------
A|-0-------------------3--------------------
E|------------------------------------------

   G                    Em
e|--------0--------------------0------------||
B|------0------0---0---------0------0---0---||
G|----0----------0---------0----------0----*||
D|-----------------------------------------*||
A|------------------------------------------||
E|-3--------------------0-------------------||

Solo que je joue pendant le refrain ( qui reprend la mélodie )

Partie A

e||--9------9-8-------------------9------------8-9s14---13-------------||
B||------11--------11--9--------9-----11-11-11-------------------------||
G||*----------------------10-11----------------------------------------||
D||*-------------------------------------------------------------------|| X2
A||--------------------------------------------------------------------||
E||--------------------------------------------------------------------||

Partie B

e|-9------9-11-----9-9-11---13--11-11-9-9-------13-11-13-11-9--------
B|-----11----------------------------------9-9-----------------------
G|-------------------------------------------------------------------
D|-------------------------------------------------------------------
A|-------------------------------------------------------------------
E|-------------------------------------------------------------------

Partie A

e|-9------9-8-------------------9------------8-9s14---13-------------
B|-----11--------11--9--------9-----11-11-11-------------------------
G|---------------------10-11-----------------------------------------
D|-------------------------------------------------------------------
A|-------------------------------------------------------------------
E|-------------------------------------------------------------------


**************************************************


Couplet 1 :
-----------

Am
Party girls don't get hurt
F
Can't feel anything, when will I learn
G                        Em 
I push it down, push it do--own

Couplet 2:
----------

Am
I'm the one "for a good time Call"
        F
Phone's blowin' up, they're ringin' my doorbell
  G                        Em
I feel the love, feel the lo--ove

Pre-refrain:
------------

F
1,2,3 1,2,3 drink
Am
1,2,3 1,2,3 drink
G
1,2,3 1,2,3 drink
G
Throw em back, till I lose Count

Refrain :
---------

F         G              C/E                    F
I'm gonna swing from the Chandelier, from the Chandelier
F         G                  C/E                      F
I'm gonna live like tomorrow doesn't exist, like it doesn't exist
F         G          C/E                               F
I'm gonna fly like a bird through the night, feel my tears as they dry
F         G              C/E                    F
I'm gonna swing from the C/Ehandelier, from the Chandelier


"Post-Refrain":
---------------       
         F                                       G
And I'm holding on for dear life, won't look down won't open my eyes
                     C/E                                          F
Keep my glass full until morning light, 'Cause I'm just holding on for tonight
                     F                                       G
Help me, I'm holding on for dear life, won't look down won't open my eyes
                     C/E                                          F    
Keep my glass full until morning light, 'Cause I'm just holding on for tonight
F
On for tonight

Couplet 3:
----------

Am
Sun is up, I'm a mess
      F
Gotta get out now, gotta run from this
     G                                 Em
Here Comes the shame, here Comes the sha--ame

Pre-refrain:
------------

F
1,2,3 1,2,3 drink
Am
1,2,3 1,2,3 drink
G
1,2,3 1,2,3 drink
G
Throw em baC/Ek, till I lose C/Eount


Refrain :
---------
F         G              C/E                    F
I'm gonna swing from the Chandelier, from the Chandelier
F         G                  C/E                      F
I'm gonna live like tomorrow doesn't exist, like it doesn't exist
F         G          C/E                               F
I'm gonna fly like a bird through the night, feel my tears as they dry
F         G              C/E                    F
I'm gonna swing from the Chandelier, from the Chandelier

"Post-Refrain":
---------------
                F                                       G
And I'm holding on for dear life, won't look down won't open my eyes
                     C/E                                          F
Keep my glass full until morning light, 'Cause I'm just holding on for tonight
                     F                                       G
Help me, I'm holding on for dear life, won't look down won't open my eyes
                     C/E                                          F    
Keep my glass full until morning light, 'Cause I'm just holding on for tonight


Pour finir on répetera la même séquence d'accords ( F - G - C/E - F ) jusqu'a la fin
de la chanson sur ces paroles :

'Cause I'm just holding for tonight"