Accords guitare

Accords guitare : Soprano – A nos héros du quotidien


Soprano – A nos héros du quotidien :

  • Niveau : Intermédiaire
  • Métrique : 4/4 (4 temps par mesure)
  • Capo case 2


Accords et paroles :

Picking Couplets
----------------
  Em             C               G              G
e|--------------------------------------------------------------|
B|-------0--------------1---------------0-------------0---------|
G|-------0--------------0---------------0-------------0---------|
D|----2-----2--------2-----2---------0-----0-------0-----0------|
A|-------------2--3-----------3---------------------------------|
E|-0------------------------------3-----------3--3----------3---|
Picking Pré-Refrains
--------------------
Bm                           C
e|-------2-------------2--------------0-------------------------|
B|-------3-------------3--------------1-------------------------|
G|----4-----4-------4-----4--------2-----2--------0-------------|
D|--------------------------------------------0h2----------0----|
A|-2-----------2--2----------2--3----------3----------0h2-------|
E|--------------------------------------------------------------|
 Em                           D
e|------------------------------------2--------3p2--------------|
B|-------0-------------0--------------3-------------3-----------|
G|-------0-------------0-----------2-----2-------------2--------|
D|----2-----2-------2-----2-----0-----------0-------------------|
A|--------------------------------------------------------------|
E|-0-----------0--0----------0----------------------------------|
Picking Pont
------------
C          Am          Em          G
e|--------------------------------------------------------------|
B|-----1----------1------------0-----------0--------------------|
G|-----0----------2------------0-----------0--------------------|
D|---2----------2------------2-----------0----------------------|
A|-3------3-2-0------0-2----------------------2-0---------------|
E|------------------------0-------0-2-3-------------------------|
  C          Am           Bm
e|-----------------------------------10p7--7--------------------|
B|-----1----------1--------------3-----------7--7---------------|
G|-----0----------2----2---------4------------------------------|
D|---2----------2-------------4---------------------------------|
A|-3------3-2-0------------2------------------------------------|
E|--------------------------------------------------------------|
Picking Refrains & Interludes
-----------------------------
Em             C               G              D
e|-----------------------------------------------------2--------|
B|-------0--------------1---------------0--------------3--------|
G|-------0--------------0---------------0-----------2-----2-----|
D|----2-----2--------2-----2---------0-----0-----0-----------0--|
A|-------------2--3-----------3---------------------------------|
E|-0------------------------------3-----------3-----------------|
## CHANSON ##
Intro 
-----
Em  C  G  ( Faire 2 fois la séquence )  
Couplet 1
---------
Em                   C                    G    G
On n'se connait pas, mais je voulais vous dire merci
Em                C                G     G
Si vous saviez combien vous avez changé ma vie
Em                  C                G    G
Sans vraiment l'savoir vous avez fait de la magie
Em                 C              G    G
Moi qui ne croyait plus en moi ni en l'avenir
Couplet 2
---------
Em               C                 G       G
Combien de fois ai-je voulu tout foutre en l'air ?
 Em                   C                  G        G
J'n'avais plus la force et l'envie d'aller faire ma guerre
  Em                   C                G      G
J'n'avais plus de souffle pour faire tourner la roue
Em                C                 G      G
Jusqu'au jour où le destin vous a mis sur ma route
Pré-refrain
-----------
Bm C                    Em     D
Oui, c'est vous qui m'avaient réanimé, eh-eh
  Bm C                     Em      D
Grâce à vous ma flamme s'est allumée, eh-eh
Refrain
-------
Em    C                 G              D
On a tous, un jour, eu ce moment de magie
Em        C           G                   D
Croisé ce héros, malgré lui, qui veut sauver une vie
Em          C            G                 D
Un mot, un sourire, une histoire et l'espoir refleuri
Em         C           G                      D
A tous ces héros, malgré eux, j'voulais leur dire merci
Instrumental
------------
Em  C  G  D ( Faire ça 2 fois )

Couplet 3
---------
Em                     C                 G      G
On n'se connait pas, mais vous m'avez tellement appris
Em                  C                   G     G
Vos mots, vos sourires et vos larmes ont sauvé la vie
   Em                  C             G      G
Vos combats m'ont appris à encaisser les coups
Em             C             G      G
Et votre persévérance à me remettre debout
Couplet 4
---------
Em              C                G     G
Vos médailles ont redonné vie à mes rêves de gamin
Em                     C                  G     G
Vos valeurs m'ont appris ce qu'est vraiment être un humain
 Em                     C              G     G
Vous êtes ce second souffle qui m'a fait tourné la roue
 Em              C                  G      G
J'remercie le destin de vous avoir mis sur ma route
Pré-refrain
-----------
Bm C                    Em     D
Oui, c'est vous qui m'avaient réanimé, eh-eh
 Bm C                     Em      D
Grâce à vous ma flamme s'est allumée, eh-eh
Refrain
-------
Em    C                 G              D
On a tous, un jour, eu ce moment de magie
Em        C           G                   D
Croisé ce héros, malgré lui, qui veut sauver une vie
Em          C            G                 D
Un mot, un sourire, une histoire et l'espoir refleuri
  Em         C           G                      D
A tous ces héros, malgré eux, j'voulais leur dire merci
Interlude
---------
Em     C         G         D         Em
La la eh, la la eh, la la oh, oh-oh-oh
   C         G         D         Em
La la eh, la la eh, la la oh, oh-oh-oh
 C         G         D         Em
La la eh, la la eh, la la oh, oh-oh-oh
      C         G         D
La la eh, la la eh, la la oh, oh-oh-oh
Pont
----
C                        Am
Je n'veux pas vous déranger
   Em
Ni vous embarrasser
   G                                   C
J'avais tellement besoin de voir mon héros et de lui dire merci
    Am
Ces mots vous sont adressés
  Bm
Peut être qu'il feront l'effet
Que vous avez eu sur ma vie
Refrain
-------
Em    C                 G              D
On a tous, un jour, eu ce moment de magie
Em        C           G                   D
Croisé ce héros, malgré lui, qui veut sauver une vie
Em          C            G                 D
Un mot, un sourire, une histoire et l'espoir refleuri
 Em         C           G                      D
A tous ces héros, malgré eux, j'voulais leur dire merci
Interlude
------------
Em     C         G         D
(La la eh, la la eh, la la oh, oh-oh-oh)
J'voulais vous dire merci
Em     C         G         D
(La la eh, la la eh, la la oh, oh-oh-oh)
J'voulais vous dire merci
Em     C         G         D
(La la eh, la la eh, la la oh, oh-oh-oh)
J'voulais vous dire merci
Em     C         G         D
(La la eh, la la eh, la la oh, oh-oh-oh)
Outro
-----
Em C  G  D  Faire la séquence 8 fois