Accords ukulélé

Accords ukulélé : Le parrain (thème)


Le parrain (thème) ou The Godfather :

  • Niveau : Débutant
  • Métrique : 4/4 (4 temps par mesure)


Tablature :

A—-3-6-5-3-6-3-5-3—————3-6-5-3-6-3-5-3—————2-5——2-3——————————–
E–3———————–4–6-3—3————————3-2-1—1-4——1-4———6-4-4-3-6-4-4–3—
C——————————————————————————————-0-0—————–2—3-0-
G—————————————————————————————————————————

OU

Verse 1 :
 
A|--------------------0--3--|--2--0--3--0--2--0--------|--------------------0--3--|
E|-----------------0--------|--------------------1--3--|--0--------------0--------|
C|--------------------------|--------------------------|--------------------------|
G|--------------------------|--------------------------|--------------------------|
 
A|--2--0--3--0--2--0--------|--------------------------|--2-----------------------|
E|--------------------0-----|--------------------1--4--|--------------------1--4--|
C|-----------------------3--|--2--------------2--------|-----------------2--------|
G|--------------------------|--------------------------|--------------------------|
 
A|--0-----------------------|--------------------------|--0--------------0--0-----|
E|--------------------0--3--|--1--0--3--1--1--0--0--4--|-----------------------4--|
C|-----------------0--------|--------------------------|--------------------------|
G|--------------------------|--------------------------|--------------------------|
 
A|-----------------2--0-----|--------------------------|--------------------------|
E|-3---------------------1--|--0--------------0--3--0--|---------------------1----|
C|--------------------------|--------------------------|--2----------------2---3--|
G|--------------------------|--------------------------|--------------------------|
 
Verse 2 :
 
A|--------------------0--3--|--2--0--3--0--2--0--------|--------------------0--3--|
E|--0--------------0--------|--------------------1--3--|--0--------------0--------|
C|--------------------------|--------------------------|--------------------------|
G|--------------------------|--------------------------|--------------------------|
 
A|--2--0--3--0--2--0--------|--------------------------|--2-----------------------|
E|--------------------0-----|--------------------1--4--|--------------------1--4--|
C|-----------------------3--|--2--------------2--------|-----------------2--------|
G|--------------------------|--------------------------|--------------------------|
 
A|--0-----------------------|--------------------------|--0--------------0--0-----|
E|--------------------0--3--|--1--0--3--1--1--0--0--4--|-----------------------4--|
C|-----------------0--------|--------------------------|--------------------------|
G|--------------------------|--------------------------|--------------------------|
 
A|-----------------2--0-----|--------------------------|--------------------------|
E|-3---------------------1--|--0--------------0--3--0--|---------------------1----|
C|--------------------------|--------------------------|--2----------------2---3--|
G|--------------------------|--------------------------|--------------------------|
 
Verse 3 :
 
A|--------------------0--3--|--2--0--3--0--2--0--------|--------------------0--3--|
E|--0--------------0--------|--------------------1--3--|--0--------------0--------|
C|--------------------------|--------------------------|--------------------------|
G|--------------------------|--------------------------|--------------------------|
 
A|--2--0--3--0--2--0--------|--------------------------|--2-----------------------|
E|--------------------0-----|--------------------1--4--|--------------------1--4--|
C|-----------------------3--|--2--------------2--------|-----------------2--------|
G|--------------------------|--------------------------|--------------------------|
 
A|--0-----------------------|--------------------------|--0--------------------0--|
E|--------------------0--3--|--1--0--3--1--1--0--0--4--|--------------------0-----|
C|-----------------0--------|--------------------------|-----------------0--------|
G|--------------------------|--------------------------|--------------------------|
 
A|--0-----------------------|
E|--------------------------|
C|--------------------------|
G|--------------------------|