Tab basse

Tab basse : Arctic Monkeys – Do I Wanna Know ?


Arctic Monkeys – Do I Wanna Know ?

  • Niveau : Débutant
  • Métrique : 4/4 (4 temps par mesure)


Tablatures :

Partie 1 :
 
G|-------------------------------------------------------|
D|--------------------3--1--0----------0----------0-0----|  x 5
A|------1-----------1---------3----1-3---3----1h3--------|
E|---1h3--3------1h3-----------------------------------3-|
 
G|-------------------------------------------------------|
D|--------------------3--1--0----------0----------5/1----|
A|------1-----------1---------3----1-3---3----5----------|
E|---1h3--3------1h3-------------------------------------|

Partie 2 :
G|-------------------------------------------------------| D|----------------------------0--------------------------| A|----3h5--6-5-3---1-3----1-3----------------------------| E|-----------------------------3-------------------------| G|-------------------------------------------------------| D|---------------5/1------------------------------0------| A|------1----------------3h5---6-5-3----1-3---1-3--------| E|---1h3--3----------------------------------------3----3|