Tab basse

Tab basse : Ben E. King – Stand By Me


Ben E. King – Stand By Me :

  • Niveau : Débutant
  • Métrique : 4/4 (4 temps par mesure)


Tablature :

                                                       shift                                           
G||------------------------|------------------------|------------------------|------------------------|
D||--7-------7----------6--|--7-------7-------7--6--|--4--------4-------2----|--4-------4-------4--2--|
A||------------------7-----|------------------------|------------------------|------------------------|
E||------------------------|------------------------|------------------------|------------------------|


     shift                     shift                                                                       
G||------------------------|------------------------|------------------------|------------------------|
D||---------------------4--|---------------------6--|--7-------7----------6--|--7-------7----------6--|
A||--5-------5-------5-----|--7-------7-------7-----|------------------7-----|------------------7-----|
E||------------------------|------------------------|------------------------|------------------------|


shift = indique le changement de position de la main