Tab basse

Tab basse : Boney M – Daddy Cool


Boney M – Daddy Cool :

  • Niveau : Débutant
  • Métrique : 4/4 (4 temps par mesure)


Tablature :

Intro :
 
G|-----------------|-----------------|
D|-----------6-5---|-----------------|
A|-8-8-8-8-8-----8-|-6-6-6-6-6---6-7-|
E|-----------------|-----------8-----|
 
G|-----------------|-----------------|
D|-----------6-5---|-----------------|
A|-8-8-8-8-8-----8-|-6-6-6-6-6---6-7-|
E|-----------------|-----------8-----|
 
 
Repeat about 7 million times:
 
G|-----------------|-----------------|
D|-3-3-3-3-3-6-5---|-----------------|
A|---------------8-|-6-6-6-6-6---6-4-|
E|-----------------|-----------8-----|
 
G|-----------------|-----------------|
D|-------------1---|-3-3-3-3-3---1-2-|
A|-3-3-3-3-3-3---3-|-----------3-----|
E|-----------------|-----------------|
 
 
Bridge 1 :
 
G|-----------------|-----------------|
D|-3-------1-------|-----------------|
A|-----------------|-4---------------|
E|-----------------|-----------------|
 
G|-----------------|-----------------|-----------------|
D|-3---------------|-1---------------|-----------------|
A|-----------------|-----------------|-4---------------|
E|-----------------|-----------------|-----------------|
 
 
Bridge 2 :
 
G|-----------------|-----------------|
D|-----------6-5---|-----------------|
A|-8-8-8-8-8-----8-|-6-6-6-6-6---6-7-|
E|-----------------|-----------8-----|
 
G|-----------------|-----------------|
D|-----------6-5---|-----------------|
A|-8-8-8-8-8-----8-|-6-6-6-6-6---6-7-|
E|-----------------|-----------8-----|