Tab basse

Tab basse : Mark Ronson – Uptown Funk ft. Bruno Mars


Mark Ronson – Uptown Funk ft. Bruno Mars :

  • Niveau : Débutant
  • Métrique : 4/4 (4 temps par mesure)


Tablature :

G||-----------------|------------------|-----------------|------------------|
D||-----------------|35-3----35--3-----|-----------------|35-3----35--3-----|
A||-5\-----------5--|------5--------3--|-5\-----------5--|------5--------3--|
E||-----------------|------------------|-----------------|------------------|
 
G||-----------------|------------------|-----------------|------------------|
D||-----------------|35-3----35--3-----|-----------------|35-3--------------|
A||-5\-----------5--|------5--------3--|-5\-----------5--|------5--2---3----|
E||-----------------|------------------|-----------------|------------------|