Tab basse

Tab basse : Rage Against The Machine – Killing In the Name


Rage Against The Machine – Killing In the Name :

  • Niveau : Débutant
  • Métrique : 4/4 (4 temps par mesure)
  • Accordage : D A D G


Tablatures :

Intro/Outro
G|--------------|
D|--------------|
A|-------6-6-6--|
D|-0-0-0--------|

"Some of those that..."
G|-------------------------|
D|---------3h4-------------|
A|----3h5------5-----------|
D|-0--------------0-2h3-2--|

Variation during second time
G|--------------------------------10--|
D|-----------------------10-11-12-----|
A|----3h5--8h9--10-11-12--------------|
D|-0----------------------------------|

"Killing in the name of"
G|----------4----------3---------2--------------|
D|----------------------------------------------|
A|----3h5-5------3h5-5-----3h5-5----------------|
D|-0----------0----------0---------0-2h3-2h3-2--|

"Now you do what they told ya"
G|---------|
D|---------|
A|-5-5--5--|
D|---------|

"Those who died..."
G|-----------------|
D|-----------------|
A|-5-5--5-5-----3--|
D|----------3-5----|

"Fuck you..."
G|---------------|
D|---------------|
A|---------------|
D|-0-0-0-0-0-0-0-|