Tab basse

Tab basse : Royal Blood – Come On Over


Royal Blood – Come On Over :

  • Niveau : Intermédiaire
  • Métrique : 4/4 (4 temps par mesure)
  • Accordage : D A D G
  • À jouer avec de la distorsion


Tablatures :

Intro : with octave up
 
G|--------------------------------------|------------------------------------|
D|--------------------------------------|------------------------------------|
A|--------------------------------------|------------------------------------|
D|--0-15-0-12-0-10-0-7-0-10-0-12-0-10-0-|7-0-10-0-12-0-10-0-7-0-6-0-5-0-3--0-|
                                                           Drums
G|--------------------------------------|------------------------------------|
D|--------------------------------------|------------------------------------|
A|--------------------------------------|------------------------------------|
D|--0-15-0-12-0-10-0-7-0-10-0-12-0-10-0-|7-0-10-0-12-0-10---0-3--0-3---------|
Bass guitar octave as well as octave up
G|--------------------------------------|------------------------------------|\
D|--------------------------------------|------------------------------------| | x2
A|--------------------------------------|------------------------------------| |
D|--0-15-0-12-0-10-0-7-0-10-0-12-0-10-0-|7-0-10-0-12-0-10-0-7-0-6-0-5-0-3--0-|/
 
Verse 1 :
 
G|---------------------------------------------------------------------------|\
D|---------------------------------------------------------------------------| | x4
A|---------------------------------------------------------------------------| |
D|--0--0--0--0--0--0--2-3-2-0---0--0--0--0--0--0--2-3-2-0--------------------|/
 
Chorus :
 
G|--------12b14--------------------------------------------------------------|\
D|---------------------------10-10-10-10--7-7-7-7-7-6-5----------------------| | x4
A|---------------------------------------------------------------------------| |
D|--0--0---------x-0-0-10-0--------------------------------------------------|/
 
Intro riff :
 
G|--------------------------------------|------------------------------------|
D|--------------------------------------|------------------------------------|
A|--------------------------------------|------------------------------------|
D|--0-15-0-12-0-10-0-7-0-10-0-12-0-10-0-|7-0-10-0-12-0-10---0-3--0-3---------|
 
Verse 2 :
 
G|---------------------------------------------------------------------------|\
D|---------------------------------------------------------------------------| | x1
A|---------------------------------------------------------------------------| |
D|--0--0--0--0--0--0--2-3-2-0---0--0--0--0--0--0--2-3-2-0--------------------|/
 
G|---------------------------------------------14-13-12-----12---------------|\
D|-------------------------------------------------------15-----14-12--------| | x1
A|---------------------------------------------------------------------------| |
D|--0--0--0--0--0--0--2-3-2-0---0--0--0--0--0--------------------------------|/
 
G|---------------------------------------------------------------------------|\
D|---------------------------------------------------------------------------| | x2
A|---------------------------------------------------------------------------| |
D|--0--0--0--0--0--0--2-3-2-0---0--0--0--0--0--0--2-3-2-0--------------------|/
 
Chorus :
 
G|--------12b14--------------------------------------------------------------|\
D|---------------------------10-10-10-10--7-7-7-7-7-6-5----------------------| | x4
A|---------------------------------------------------------------------------| |
D|--0--0---------x-0-0-10-0--------------------------------------------------|/
 
Bridge :
 
G|---------------------------------------------------------------------------|
D|---------------------------------------------------------------------------|
A|---------------------------------------------------------------------------|
D|--8-8-8-8-8-8-8-8-5-5-5-5-5-5-5-5-8-8-8-8-8-8-8-8-5-5-5-5-3-3-3-2-0--------|
 
Verse 3 :
 
G|---------------------------------------------------------------------------|
D|---------------------------------------------------------------------------|
A|---------------------------------------------------------------------------|
D|-0-------------------------8x16---5x16-------------------------------------|
 
Solo :
 
G|--------12b14--------------------------------------------------------------|
D|---------------------------10-10-10-10--7-7-7-7-7-6-5----------------------|
A|---------------------------------------------------------------------------|
D|--0--0---------x-0-0-10-0--------------------------------------------------|
 
G|--------12b14-------12-10-12-10--------------------------------------------|
D|---------------------------------12----------------------------------------|
A|---------------------------------------------------------------------------|
D|--0--0---------x-0------------------10-10-10-10-10-11-11-12----------------|
 
Chorus :
 
G|--------12b14--------------------------------------------------------------|\
D|---------------------------10-10-10-10--7-7-7-7-7-6-5----------------------| | x4
A|---------------------------------------------------------------------------| |
D|--0--0---------x-0-0-10-0--------------------------------------------------|/
 
Outro :
 
G|--------------------------------------|------------------------------------|
D|--------------------------------------|------------------------------------|
A|--------------------------------------|------------------------------------|
D|--0-15-0-12-0-10-0-7-0-10-0-12-0-10-0-|7-0-10-0-12-0-10-0-7-0-6-0-5-0-3--0-|
 
G|--------------------------------------|------------------------------------|
D|--------------------------------------|------------------------------------|
A|--------------------------------------|------------------------------------|
D|--0-15-0-12-0-10-0-7-0-10-0-12-0-10-0-|7-0-10-0-12-0-10---0-3--0-3---------|
 
G|--------------------------------------|------------------------------------|
D|--------------------------------------|------------------------------------|
A|--------------------------------------|------------------------------------|
D|--0-15-0-12-0-10-0-7-0-10-0-12-0-10-0-|7-0-10-0-12-0-10-0-7-0-6-0-5-0-3--0-|
 
G|--------------------------------------|-----------------------------------------------|
D|--------------------------------------|-----------------------------------------------|
A|--------------------------------------|-----------------------------------------------|
D|--0-15-0-12-0-10-0-7-0-10-0-12-0-10-0-|7-0-10-0-12-0-10---0-3---0-3---0-3---0-3---0/--|
 
************************************
 
| x  Dead note
| b  Bend
| /  Slide up
 
************************************
 
Lyrics :
 
[Verse 1]
I'm on a train, going nowhere
I ran away, to make you care
This ain't my house, this ain't your home
Not when I'm feeling, feel so 'lone
 
[Chorus]
So come on over, yeah
I've waited since you start believin'
Yeah so come on over yeah,
Well there's no god and I don't really care
 
[Verse 2]
Lets run away, get out of here
I got no money, and I don't care
This ain't my house, this ain't your home
not when I'm feeling, feel so 'lone
 
[Chorus]
So come on over, yeah
I've waited since you start believin'
Yeah so come on over yeah,
Well there's no god and I don't really care
 
[Verse 3]
I'm on a train, going nowhere
I ran away, to make you care
This ain't my house, this ain't your home
Not when I'm feeling, feel so 'lone
 
[Chorus]
So come on over, yeah
I've waited since you start believin'
Yeah so come on over yeah,
Well there's no god and I don't really care