Tab basse

Tab basse : Royal Blood – Figure It Out


Royal Blood – Figure It Out :

  • Niveau : Intermédiaire
  • Métrique : 4/4 (4 temps par mesure)
  • À jouer avec de la distorsion


Tablatures :

Intro :
 
G|-------------------------------|
D|-------------------------------|
A|-------------------------------| x2
E|-0000000-0-10-0-10-000000-0-10-|
 
 
Verse :
 
G|-----------------------------------------------------------------------------------|
D|-----------------------------------------------------------------------------------|
A|-----------------------------------------------------------------------------------| x2
E|-0000000-0-10-0-10-000000-0-10------0000000-0-10-0-10-000000-55555-3333-2222-1111--|
 
 
Pre-Chorus : (x2)
 
G|--------------------------------------------------------------------------------|
D|--------------------------------------------------------------------------------|
A|--------------------------------------------------------------------------------|
E|-0-10-0-10-0-10-0-10-0-10-0-10-0-10-0-10-0-9-0-9-0-9-0-9-0-9-0-9-0-9-0-9--------|
 
G|--------------------------------------------------------------------------------|
D|--------------------------------------------------------------------------------|
A|--------------------------------------------------------------------------------|
E|-0-8-0-8-0-8-0-8-0-8-0-8-0-8-0-8-0-7-0-7-0-7-0-7-0-7-0-7-0-7-0-7----------------|
 
 
Chorus 1 :
 
G|-------------------------------|---------|    |------------------|
D|-------------------------------|---------|    |------------------|
A|-------------------------------|--5------| x3 |-5----5----5--5---|
E|-0-0-0-0-3-3-3-3-5-5-5-5--3-3--|-----5---|    |--5----5----5--5--|
 
 
Post Chorus :
 
 
G|-------------------------------|
D|-------------------------------|
A|-------------------------------| x2
E|-0000000-0-10-0-10-000000-0-10-|
 
 
Verse :
 
G|-----------------------------------------------------------------------------------|
D|-----------------------------------------------------------------------------------|
A|-----------------------------------------------------------------------------------| x2
E|-0000000-0-10-0-10-000000-0-10------0000000-0-10-0-10-000000-55555-3333-2222-1111--|
 
 
Chorus 2 :
 
G|-------------------------------|---------|    |------------------------|
D|-------------------------------|---------|    |------------------------|
A|-------------------------------|--5------| x3 |-5----5----4----4---/7--|
E|-0-0-0-0-3-3-3-3-5-5-5-5--3-3--|-----5---|    |---5----5----5----4-----|
 
 
Solo :
 
G|--------------------------------------------------------------------------|
D|--------------------------------------------------------------------------|
A|--------------------------------------------------------------------------|
E|-12--10h12p10p9--10h12p10p8--10h12p10p7--3-0-3-0-5-0-6-0-7-0-8-0-9/10-----|
 
G|-----------------------------------------|--------------------------------|
D|-----------------------------------------|--------------------------------|
A|-----------------------------------------|--------------------------------| X6
E|-10--10h12p10p9--10h12p10p8--10h12p10p7--|--3-0-3-0-5-0-6-0-7-0-8-0-9/10--|
 
G|-----------------------------------|--------------------------------|
D|-----------------------------------|--------------------------------|
A|-----------------------------------|--------------------------------| x4
E|-00----00----00--*Drum Solo*---00--|--3-0-3-0-5-0-6-0-7-0-8-0-9/10--|
 
G|--------------------------------------------------------------------|
D|--------------------------------------------------------------------|
A|--------------------------------------------------------------------|
E|-12-12----12-15-15-12-12----12-15-15-12-12----12-15-15-12-12--------|
 
 
************************************
 
| h  Hammer-on
| p  Pull-off
| /  Slide up
 
************************************