Tab basse

Tab basse : Royal Blood – Loose Change


Royal Blood – Loose Change :

  • Niveau : Intermédiaire
  • Métrique : 4/4 (4 temps par mesure)
  • À jouer avec de la distorsion


Tablatures :

Intro : (first rift)
 
G|------------------------------------------------------------------|
D|--------------------11---9----------------------------------------|
A|------------------9--------11----9---9--------12-12-12-12-11-11---|
E|-9---9-------9-12-------------12--------------------------------12|
 
G|------------------------------------------------------------------|
D|--------------------11---9----------------------------------------|
A|------------------9--------11----9---9--------12-12-12-12-11-11---|
E|-9---9-------9-12-------------12--------------------------------12|
 
First Verse :
 
"Loose change, another penny..."
G|------------------------------------------------------------------|
D|--------------------11---9----------------------------------------|
A|------------------9--------11----9---9--------12-12-12-12-11-11---|
E|-9---9-------9-12-------------12--------------------------------12|
 
G|------------------------------------------------------------------|
D|--------------------11---9----------------------------------------|
A|------------------9--------11----9---9--------12-12-12-12-11-11---|
E|-9---9-------9-12-------------12--------------------------------12|
 
G|------------------------------------------------------------------|
D|--------------------11---9----------------------------------------|
A|------------------9--------11----9---9--------12-12-12-12-11-11---|
E|-9---9-------9-12-------------12--------------------------------12|
 
G|------------------------------------------------------------------|
D|--------------------11---9----------------------------------------|
A|------------------9--------11----9---9--------12-12-12-12-11-11---|
E|-9---9-------9-12-------------12--------------------------------12|
 
G|-----------------------------------------|
D|-----------------------------------------|
A|-12----------------14--------------------|
E|-----------------------------------------|
 

Break :
in singing
G|------------------------------------------------------------------| D|--------------------11---9----------------------------------------| A|------------------9--------11----9---9--------12-12-12-12-11-11---| E|-9---9-------9-12-------------12--------------------------------12|
G|-----------------------------------------------------------| D|--------------------11--14-13------------------------------| A|------------------9-----------13-15-----------7---7-9---9-9| E|-9---9-------9-12------------------~13\--------------------| Second verse : G|------------------------------------------------------------------| D|--------------------11---9----------------------------------------| A|------------------9--------11----9---9--------12-12-12-12-11-11---| E|-9---9-------9-12-------------12--------------------------------12| G|------------------------------------------------------------------| D|--------------------11---9----------------------------------------| A|------------------9--------11----9---9--------12-12-12-12-11-11---| E|-9---9-------9-12-------------12--------------------------------12| G|------------------------------------------------------------------| D|--------------------11---9----------------------------------------| A|------------------9--------11----9---9--------12-12-12-12-11-11---| E|-9---9-------9-12-------------12--------------------------------12| G|------------------------------------------------------------------| D|--------------------11---9----------------------------------------| A|------------------9--------11----9---9--------12-12-12-12-11-11---| E|-9---9-------9-12-------------12--------------------------------12| Bridge :
(one note every 4 bars) G|-----------------------------------------------------------------------| D|-----------------------------------------------------------------------| A|-----------------------------------------------------------------------| E|-9---------------------------------9-----------------------------------|
G|-----------------------------------------------------------------------| D|-----------------------------------------------------------------------| A|-----------------------------------------------------------------------| E|-9---------------------------------9-----------------------------------| Third Verse :
(new rift) G|--------9-8-----------------------------------9----------------9-------| D|------------9-11---9-11-9-11-9-----------------------------------------| A|-------------------------------11-9-9-9-9---9---7--7-7-9-9-9-9---9-----| E|-9---9-----------------------------------------------------------------|
G|--------9-8-----------------------------------9----------------9-------| D|------------9-11---9-11-9-11-9-----------------------------------------| A|-------------------------------11-9-9-9-9---9---7--7-7-9-9-9-9---9-----| E|-9---9-----------------------------------------------------------------| "I wanna double my money..." G|--------9-8-----------------------------------9----------------9-------| D|------------9-11---9-11-9-11-9-----------------------------------------| A|-------------------------------11-9-9-9-9---9---7--7-7-9-9-9-9---9-----| E|-9---9-----------------------------------------------------------------| G|--------9-8-----------------------------------9----------------9-------| D|------------9-11---9-11-9-11-9-----------------------------------------| A|-------------------------------11-9-9-9-9---9---7--7-7-9-9-9-9---9-----| E|-9---9-----------------------------------------------------------------| G|--------9-8-----------------------------------9----------------9-------| D|------------9-11---9-11-9-11-9-----------------------------------------| A|-------------------------------11-9-9-9-9---9---7--7-7-9-9-9-9---9-----| E|-9---9-----------------------------------------------------------------| G|--------9-8-----------------------------------9----------------9-------| D|------------9-11---9-11-9-11-9-----------------------------------------| A|-------------------------------11-9-9-9-9---9---7--7-7-9-9-9-9---9-----| E|-9---9-----------------------------------------------------------------| "'Cause all that glitters is gold till the glitter gets sold..." G|-----------------------------------------------------------------------------------| D|-----------------------------------------------------------------------------------| A|--12--12-12-12-12-12-12-12-9--9-9-9-9-9-9-9----------------------------------------| E|--------------------------------------------9--9-9-9-9-9-9-9-9-9-9-9-9-9-9-9-9-9-9-| G|-----------------------------------------------------------------------------------| D|-----------------------------------------------------------------------------------| A|--12--12-12-12-12-12-12-12-9--9-9-9-9-9-9-9----------------------------------------| E|--------------------------------------------9--9-9-9-9-9-9-9-9-9-9-9-9-9-9-9-9-9-9-| G|-----------------------------------------------------------------------------------| D|-----------------------------------------------------------------------------------| A|--12--12-12-12-12-12-12-12-9--9-9-9-9-9-9-9----------------------------------------| E|--------------------------------------------9--9-9-9-9-9-9-9-9-9-9-9-9-9-9-9-9-9-9-| G|-----------------------------------------------------------------------------------| D|-----------------------------------------------------------------------------------| A|--12--12-12-12-12-12-12-12-9--9-9-9-9-9-9-9----------------------------------------| E|--------------------------------------------9--9-9-9-9-9-9-9-9-9-9-9-9-9-9-9-9-9-9-| Outro : G|-------9-8-------------------------------------------------| D|-----------9-11---9-11-9-11-9------------------------------| A|------------------------------11-9-9-9-9--9----------------| E|-9--9------------------------------------------------------| ********************************* | / slide up | \ slide down | h hammer-on | p pull-off | ~ vibrato | + harmonic | x Mute note *********************************