Tab basse

Tab basse : Royal Blood – Ten Tonne Skeleton


Royal Blood – Ten Tonne Skeleton :

  • Niveau : Intermédiaire
  • Métrique : 4/4 (4 temps par mesure)
  • Accordage : D G C F
  • À jouer avec de la distorsion


Tablatures :

Intro :
 
F|--9--7--11--7h9--9--7--11--7h9--9--7--11--7h9--9--7--11--7h9---------------|
C|---------------------------------------------------------------------------|
G|----------------------------------------------0--0--0---0------------------|
D|-0--0--0---0----0--0--0---0----8--8--8---8---------------------------------| x2
 
 
Verse :
 
F|---------------------------------------------------------------------------|
C|---------------------------------------------------------------------------|
G|---7\----7\----7\---7\-----------------------------------------------------|
D|-------3------3----3----3-8\--3-8\--3-5\--3--8---7-------------------------| x2
 
 
Chorus :
 
F|--9--7--11--7h9--9--7--11--7h9--9--7--11--7h9--9--7--11--7h9---------------|
C|---------------------------------------------------------------------------|
G|----------------------------------------------0--0--0---0------------------|
D|-0--0--0---0----0--0--0---0----8--8--8---8---------------------------------| x2
 
 
Verse :
 
F|---------------------------------------------------------------------------|
C|---------------------------------------------------------------------------|
G|---7\----7\----7\---7\-----------------------------------------------------|
D|-------3------3----3----3-8\--3-8\--3-5\--3-8--7---------------------------| x2
 
 
Pre-Chorus :
 
F|---------------------------------------------------------------------------|
C|---------------------------------------------------------------------------|
G|--3---------0--------------------------------------------------------------|
D|---------------------------------------------------------------------------|
 
 
Chorus :
 
F|--9--7--11--7h9--9--7--11--7h9--9--7--11--7h9--9--7--11--7h9---------------|
C|---------------------------------------------------------------------------|
G|----------------------------------------------0--0--0---0------------------|
D|-0--0--0---0----0--0--0---0----8--8--8---8---------------------------------| x2
 
 
Bridge :
 
F|---------------------------------------------------------------------------|
C|---------------------------------------------------------------------------|
G|---------------------------------------------------------------------------|
D|-------------------88888888888888887777777777777777------------------------|
 
F|---------------------------------------------------------------------------|
C|---------------------------------------------------------------------------|
G|---------------------------------------------------------------------------|
D|-0----------9----------5--------0---------9----8--8----12/-----------------|
 
 
Chorus :
 
F|--9--7--11--7h9--9--7--11--7h9--9--7--11--7h9--9--7------------------------|
C|------------------------------------------------------7-9-7----------------|
G|----------------------------------------------0--0--------7-10-7\----------|
D|-0--0--0---0----0--0--0---0----8--8--8---8---------------------------------|
 
F|--15--14--12--7h9-15--14--12--7h9---9--7--11--7h9--9--7--11--7h9-----------|
C|---------------------------------------------------------------------------|
G|--------------------------------------------------0--0--0---0--------------|
D|-0--0---0---0----0---0---0---0-----8--8--8---8-----------------------------|
 
 
Outro :
 
F|---------------------------------------------------------------------------|
C|---------------------------------------------------------------------------|
G|---------------------------------------------------------------------------|
D|8888888888888888777777777777777788888888888888887777777777777777-----------|
 
F|-----------------------------------------9---7h9---------------------------|
C|---------------------------------------------------------------------------|
G|-------------------------------------------------7\------------------------|
D|88888888888888882222222222222222-------0---0-------------------------------|
 
 
************************************
 
| h  Hammer-on
| /  Slide up
| \  Slide down
 
************************************